  0
SECTION
  2
HEADER
  9
$ACADVER
  1
AC1015
  9
$ACADMAINTVER
 70
     6
  9
$DWGCODEPAGE
  3
ANSI_1254
  9
$INSBASE
 10
0.0
 20
0.0
 30
0.0
  9
$EXTMIN
 10
0.0
 20
0.0
 30
0.0
  9
$EXTMAX
 10
279.4
 20
215.9
 30
0.0
  9
$LIMMIN
 10
0.0
 20
0.0
  9
$LIMMAX
 10
279.4
 20
215.9
  9
$ORTHOMODE
 70
     0
  9
$REGENMODE
 70
     1
  9
$FILLMODE
 70
     1
  9
$QTEXTMODE
 70
     0
  9
$MIRRTEXT
 70
     1
  9
$LTSCALE
 40
1.0
  9
$ATTMODE
 70
     1
  9
$TEXTSIZE
 40
3.5
  9
$TRACEWID
 40
1.0
  9
$TEXTSTYLE
  7
Standard
  9
$CLAYER
  8
0
  9
$CELTYPE
  6
ByLayer
  9
$CECOLOR
 62
   256
  9
$CELTSCALE
 40
1.0
  9
$DISPSILH
 70
     0
  9
$DIMSCALE
 40
1.0
  9
$DIMASZ
 40
3.5
  9
$DIMEXO
 40
1.0
  9
$DIMDLI
 40
3.75
  9
$DIMRND
 40
0.0
  9
$DIMDLE
 40
0.0
  9
$DIMEXE
 40
1.0
  9
$DIMTP
 40
0.0
  9
$DIMTM
 40
0.0
  9
$DIMTXT
 40
3.5
  9
$DIMCEN
 40
2.5
  9
$DIMTSZ
 40
0.0
  9
$DIMTOL
 70
     0
  9
$DIMLIM
 70
     0
  9
$DIMTIH
 70
     1
  9
$DIMTOH
 70
     1
  9
$DIMSE1
 70
     0
  9
$DIMSE2
 70
     0
  9
$DIMTAD
 70
     1
  9
$DIMZIN
 70
     0
  9
$DIMBLK
  1

  9
$DIMASO
 70
     1
  9
$DIMSHO
 70
     1
  9
$DIMPOST
  1

  9
$DIMAPOST
  1

  9
$DIMALT
 70
     0
  9
$DIMALTD
 70
     3
  9
$DIMALTF
 40
0.0393700787
  9
$DIMLFAC
 40
1.0
  9
$DIMTOFL
 70
     1
  9
$DIMTVP
 40
0.0
  9
$DIMTIX
 70
     0
  9
$DIMSOXD
 70
     0
  9
$DIMSAH
 70
     0
  9
$DIMBLK1
  1

  9
$DIMBLK2
  1

  9
$DIMSTYLE
  2
ISO-25
  9
$DIMCLRD
 70
     0
  9
$DIMCLRE
 70
     0
  9
$DIMCLRT
 70
     0
  9
$DIMTFAC
 40
1.0
  9
$DIMGAP
 40
1.524
  9
$DIMJUST
 70
     0
  9
$DIMSD1
 70
     0
  9
$DIMSD2
 70
     0
  9
$DIMTOLJ
 70
     0
  9
$DIMTZIN
 70
     0
  9
$DIMALTZ
 70
     0
  9
$DIMALTTZ
 70
     0
  9
$DIMUPT
 70
     0
  9
$DIMDEC
 70
     2
  9
$DIMTDEC
 70
     2
  9
$DIMALTU
 70
     2
  9
$DIMALTTD
 70
     3
  9
$DIMTXSTY
  7
Standard
  9
$DIMAUNIT
 70
     0
  9
$DIMADEC
 70
     2
  9
$DIMALTRND
 40
0.0
  9
$DIMAZIN
 70
     0
  9
$DIMDSEP
 70
    44
  9
$DIMATFIT
 70
     3
  9
$DIMFRAC
 70
     0
  9
$DIMLDRBLK
  1

  9
$DIMLUNIT
 70
     2
  9
$DIMLWD
 70
    -2
  9
$DIMLWE
 70
    -2
  9
$DIMTMOVE
 70
     0
  9
$LUNITS
 70
     2
  9
$LUPREC
 70
     2
  9
$SKETCHINC
 40
1.0
  9
$FILLETRAD
 40
10.0
  9
$AUNITS
 70
     0
  9
$AUPREC
 70
     2
  9
$MENU
  1
.
  9
$ELEVATION
 40
0.0
  9
$PELEVATION
 40
0.0
  9
$THICKNESS
 40
0.0
  9
$LIMCHECK
 70
     0
  9
$CHAMFERA
 40
0.0
  9
$CHAMFERB
 40
0.0
  9
$CHAMFERC
 40
0.0
  9
$CHAMFERD
 40
0.0
  9
$SKPOLY
 70
     0
  9
$TDCREATE
 40
2458985.698532106
  9
$TDUCREATE
 40
2458985.573532106
  9
$TDUPDATE
 40
2458985.698532569
  9
$TDUUPDATE
 40
2458985.573532569
  9
$TDINDWG
 40
0.0000000116
  9
$TDUSRTIMER
 40
0.0000000116
  9
$USRTIMER
 70
     1
  9
$ANGBASE
 50
0.0
  9
$ANGDIR
 70
     0
  9
$PDMODE
 70
     0
  9
$PDSIZE
 40
-1.0
  9
$PLINEWID
 40
0.0
  9
$SPLFRAME
 70
     0
  9
$SPLINETYPE
 70
     6
  9
$SPLINESEGS
 70
     8
  9
$HANDSEED
  5
EC
  9
$SURFTAB1
 70
     6
  9
$SURFTAB2
 70
     6
  9
$SURFTYPE
 70
     6
  9
$SURFU
 70
     6
  9
$SURFV
 70
     6
  9
$UCSBASE
  2

  9
$UCSNAME
  2

  9
$UCSORG
 10
0.0
 20
0.0
 30
0.0
  9
$UCSXDIR
 10
1.0
 20
0.0
 30
0.0
  9
$UCSYDIR
 10
0.0
 20
1.0
 30
0.0
  9
$UCSORTHOREF
  2

  9
$UCSORTHOVIEW
 70
     0
  9
$UCSORGTOP
 10
0.0
 20
0.0
 30
0.0
  9
$UCSORGBOTTOM
 10
0.0
 20
0.0
 30
0.0
  9
$UCSORGLEFT
 10
0.0
 20
0.0
 30
0.0
  9
$UCSORGRIGHT
 10
0.0
 20
0.0
 30
0.0
  9
$UCSORGFRONT
 10
0.0
 20
0.0
 30
0.0
  9
$UCSORGBACK
 10
0.0
 20
0.0
 30
0.0
  9
$PUCSBASE
  2

  9
$PUCSNAME
  2

  9
$PUCSORG
 10
0.0
 20
0.0
 30
0.0
  9
$PUCSXDIR
 10
1.0
 20
0.0
 30
0.0
  9
$PUCSYDIR
 10
0.0
 20
1.0
 30
0.0
  9
$PUCSORTHOREF
  2

  9
$PUCSORTHOVIEW
 70
     0
  9
$PUCSORGTOP
 10
0.0
 20
0.0
 30
0.0
  9
$PUCSORGBOTTOM
 10
0.0
 20
0.0
 30
0.0
  9
$PUCSORGLEFT
 10
0.0
 20
0.0
 30
0.0
  9
$PUCSORGRIGHT
 10
0.0
 20
0.0
 30
0.0
  9
$PUCSORGFRONT
 10
0.0
 20
0.0
 30
0.0
  9
$PUCSORGBACK
 10
0.0
 20
0.0
 30
0.0
  9
$USERI1
 70
     0
  9
$USERI2
 70
     0
  9
$USERI3
 70
     0
  9
$USERI4
 70
     0
  9
$USERI5
 70
     0
  9
$USERR1
 40
0.0
  9
$USERR2
 40
0.0
  9
$USERR3
 40
0.0
  9
$USERR4
 40
0.0
  9
$USERR5
 40
0.0
  9
$WORLDVIEW
 70
     1
  9
$SHADEDGE
 70
     3
  9
$SHADEDIF
 70
    70
  9
$TILEMODE
 70
     1
  9
$MAXACTVP
 70
    64
  9
$PINSBASE
 10
0.0
 20
0.0
 30
0.0
  9
$PLIMCHECK
 70
     0
  9
$PEXTMIN
 10
1.0000000000E+20
 20
1.0000000000E+20
 30
1.0000000000E+20
  9
$PEXTMAX
 10
-1.0000000000E+20
 20
-1.0000000000E+20
 30
-1.0000000000E+20
  9
$PLIMMIN
 10
0.0
 20
0.0
  9
$PLIMMAX
 10
420.0
 20
297.0
  9
$UNITMODE
 70
     0
  9
$VISRETAIN
 70
     1
  9
$PLINEGEN
 70
     0
  9
$PSLTSCALE
 70
     1
  9
$TREEDEPTH
 70
  3020
  9
$CMLSTYLE
  2
Standard
  9
$CMLJUST
 70
     0
  9
$CMLSCALE
 40
20.0
  9
$PROXYGRAPHICS
 70
     1
  9
$MEASUREMENT
 70
     1
  9
$CELWEIGHT
370
    -1
  9
$ENDCAPS
280
     0
  9
$JOINSTYLE
280
     0
  9
$LWDISPLAY
290
     1
  9
$INSUNITS
 70
     4
  9
$HYPERLINKBASE
  1

  9
$STYLESHEET
  1

  9
$XEDIT
290
     1
  9
$CEPSNTYPE
380
     0
  9
$PSTYLEMODE
290
     1
  9
$FINGERPRINTGUID
  2
{e4fa844b-f715-488b-aea4-6888e04cae8f}
  9
$VERSIONGUID
  2
{FAEB1C32-E019-11D5-929B-00C0DF256EC4}
  9
$EXTNAMES
290
     1
  9
$PSVPSCALE
 40
0.0
  9
$OLESTARTUP
290
     0
  0
ENDSEC
  0
SECTION
  2
CLASSES
  0
CLASS
  1
ACDBDICTIONARYWDFLT
  2
AcDbDictionaryWithDefault
  3
ObjectDBX Classes
 90
        0
280
     0
281
     0
  0
CLASS
  1
VISUALSTYLE
  2
AcDbVisualStyle
  3
ObjectDBX Classes
 90
     4095
280
     0
281
     0
  0
CLASS
  1
MATERIAL
  2
AcDbMaterial
  3
ObjectDBX Classes
 90
     1153
280
     0
281
     0
  0
CLASS
  1
SCALE
  2
AcDbScale
  3
ObjectDBX Classes
 90
     1153
280
     0
281
     0
  0
CLASS
  1
TABLESTYLE
  2
AcDbTableStyle
  3
ObjectDBX Classes
 90
     4095
280
     0
281
     0
  0
CLASS
  1
MLEADERSTYLE
  2
AcDbMLeaderStyle
  3
ACDB_MLEADERSTYLE_CLASS
 90
     4095
280
     0
281
     0
  0
CLASS
  1
SUN
  2
AcDbSun
  3
SCENEOE
 90
     1153
280
     0
281
     0
  0
CLASS
  1
ACDBPLACEHOLDER
  2
AcDbPlaceHolder
  3
ObjectDBX Classes
 90
        0
280
     0
281
     0
  0
CLASS
  1
LAYOUT
  2
AcDbLayout
  3
ObjectDBX Classes
 90
        0
280
     0
281
     0
  0
ENDSEC
  0
SECTION
  2
TABLES
  0
TABLE
  2
VPORT
  5
8
330
0
100
AcDbSymbolTable
 70
     1
  0
VPORT
  5
29
330
8
100
AcDbSymbolTableRecord
100
AcDbViewportTableRecord
  2
*Active
 70
     0
 10
0.0
 20
0.0
 11
1.0
 21
1.0
 12
139.7
 22
107.95
 13
0.0
 23
0.0
 14
10.0
 24
10.0
 15
10.0
 25
10.0
 16
0.0
 26
0.0
 36
1.0
 17
0.0
 27
0.0
 37
0.0
 40
215.9
 41
1.2941176471
 42
50.0
 43
0.0
 44
0.0
 50
0.0
 51
0.0
 71
     0
 72
  2000
 73
     1
 74
     3
 75
     0
 76
     0
 77
     0
 78
     0
281
     0
 65
     1
110
0.0
120
0.0
130
0.0
111
1.0
121
0.0
131
0.0
112
0.0
122
1.0
132
0.0
 79
     0
146
0.0
  0
ENDTAB
  0
TABLE
  2
LTYPE
  5
5
330
0
100
AcDbSymbolTable
 70
     6
  0
LTYPE
  5
14
330
5
100
AcDbSymbolTableRecord
100
AcDbLinetypeTableRecord
  2
ByBlock
 70
     0
  3

 72
    65
 73
     0
 40
0.0
  0
LTYPE
  5
15
330
5
100
AcDbSymbolTableRecord
100
AcDbLinetypeTableRecord
  2
ByLayer
 70
     0
  3

 72
    65
 73
     0
 40
0.0
  0
LTYPE
  5
16
330
5
100
AcDbSymbolTableRecord
100
AcDbLinetypeTableRecord
  2
Continuous
 70
     0
  3
Solid line
 72
    65
 73
     0
 40
0.0
  0
LTYPE
  5
6E
330
5
100
AcDbSymbolTableRecord
100
AcDbLinetypeTableRecord
  2
HIDDEN
 70
     0
  3
Hidden __ __ __ __ __ __ __ __ __ __ __ __ __ __
 72
    65
 73
     2
 40
1.905
 49
1.27
 74
     0
 49
-0.635
 74
     0
  0
LTYPE
  5
6F
330
5
100
AcDbSymbolTableRecord
100
AcDbLinetypeTableRecord
  2
PHANTOM
 70
     0
  3
Phantom ______  __  __  ______  __  __  ______
 72
    65
 73
     6
 40
12.7
 49
6.35
 74
     0
 49
-1.27
 74
     0
 49
1.27
 74
     0
 49
-1.27
 74
     0
 49
1.27
 74
     0
 49
-1.27
 74
     0
  0
LTYPE
  5
70
330
5
100
AcDbSymbolTableRecord
100
AcDbLinetypeTableRecord
  2
CENTER
 70
     0
  3
Center ____ _ ____ _ ____ _ ____ _ ____ _ ____
 72
    65
 73
     4
 40
10.16
 49
6.35
 74
     0
 49
-1.27
 74
     0
 49
1.27
 74
     0
 49
-1.27
 74
     0
  0
LTYPE
  5
71
330
5
100
AcDbSymbolTableRecord
100
AcDbLinetypeTableRecord
  2
CENTERX2
 70
     0
  3
Center (2x) ________  __  ________  __  _____
 72
    65
 73
     4
 40
20.32
 49
12.7
 74
     0
 49
-2.54
 74
     0
 49
2.54
 74
     0
 49
-2.54
 74
     0
  0
LTYPE
  5
72
330
5
100
AcDbSymbolTableRecord
100
AcDbLinetypeTableRecord
  2
DOT2
 70
     0
  3
Dot (.5x) ........................................
 72
    65
 73
     2
 40
0.635
 49
0.0
 74
     0
 49
-0.635
 74
     0
  0
ENDTAB
  0
TABLE
  2
LAYER
  5
2
330
0
100
AcDbSymbolTable
 70
    17
  0
LAYER
  5
10
330
2
100
AcDbSymbolTableRecord
100
AcDbLayerTableRecord
  2
0
 70
     0
 62
     7
  6
Continuous
370
    -3
390
F
  0
LAYER
  5
73
330
2
100
AcDbSymbolTableRecord
100
AcDbLayerTableRecord
  2
FORMAT
 70
     0
 62
     7
  6
Continuous
370
    -3
390
F
  0
LAYER
  5
74
330
2
100
AcDbSymbolTableRecord
100
AcDbLayerTableRecord
  2
YARDIMCI_GEOMETRI
 70
     0
 62
    -6
  6
Continuous
290
     0
370
    -3
390
F
  0
LAYER
  5
75
330
2
100
AcDbSymbolTableRecord
100
AcDbLayerTableRecord
  2
SAYFA_CERCEVESI
 70
     0
 62
     7
  6
Continuous
370
    25
390
F
  0
LAYER
  5
76
330
2
100
AcDbSymbolTableRecord
100
AcDbLayerTableRecord
  2
ANTET
 70
     0
 62
     7
  6
Continuous
370
    -3
390
F
  0
LAYER
  5
77
330
2
100
AcDbSymbolTableRecord
100
AcDbLayerTableRecord
  2
OLCU
 70
     0
 62
   150
  6
Continuous
370
    -3
390
F
  0
LAYER
  5
78
330
2
100
AcDbSymbolTableRecord
100
AcDbLayerTableRecord
  2
METIN
 70
     0
 62
    96
  6
Continuous
370
    -3
390
F
  0
LAYER
  5
79
330
2
100
AcDbSymbolTableRecord
100
AcDbLayerTableRecord
  2
BALON
 70
     0
 62
     5
  6
Continuous
370
    -3
390
F
  0
LAYER
  5
7A
330
2
100
AcDbSymbolTableRecord
100
AcDbLayerTableRecord
  2
VURGU
 70
     0
 62
     7
  6
Continuous
370
    -3
390
F
  0
LAYER
  5
7B
330
2
100
AcDbSymbolTableRecord
100
AcDbLayerTableRecord
  2
SILIK
 70
     0
 62
     7
  6
Continuous
370
    -3
390
F
  0
LAYER
  5
7C
330
2
100
AcDbSymbolTableRecord
100
AcDbLayerTableRecord
  2
MODEL
 70
     0
 62
     7
  6
Continuous
370
    -3
390
F
  0
LAYER
  5
7D
330
2
100
AcDbSymbolTableRecord
100
AcDbLayerTableRecord
  2
DETAYLANDıRMA
 70
     0
 62
   190
  6
Continuous
370
    -3
390
F
  0
LAYER
  5
7E
330
2
100
AcDbSymbolTableRecord
100
AcDbLayerTableRecord
  2
TOLERANS
 70
     0
 62
   230
  6
Continuous
370
    -3
390
F
  0
LAYER
  5
7F
330
2
100
AcDbSymbolTableRecord
100
AcDbLayerTableRecord
  2
MERKEZ_CIZGILERI
 70
     0
 62
    30
  6
Continuous
370
    -3
390
F
  0
LAYER
  5
80
330
2
100
AcDbSymbolTableRecord
100
AcDbLayerTableRecord
  2
KESIT-DETAY_CIZGILERI
 70
     0
 62
     7
  6
Continuous
370
    -3
390
F
  0
LAYER
  5
81
330
2
100
AcDbSymbolTableRecord
100
AcDbLayerTableRecord
  2
\U+041E\U+0421\U+0415\U+0412\U+042B\U+0415
 70
     0
 62
     7
  6
Continuous
370
    -3
390
F
  0
LAYER
  5
82
330
2
100
AcDbSymbolTableRecord
100
AcDbLayerTableRecord
  2
\U+0412\U+041E\U+0414\U+042F\U+041D\U+042B\U+0415_\U+0417\U+041D\U+0410\U+041A\U+0418
 70
     0
 62
    11
  6
Continuous
370
    -3
390
F
  0
ENDTAB
  0
TABLE
  2
STYLE
  5
3
330
0
100
AcDbSymbolTable
 70
     1
  0
STYLE
  5
11
330
3
100
AcDbSymbolTableRecord
100
AcDbTextStyleTableRecord
  2
Standard
 70
     0
 40
0.0
 41
1.0
 50
0.0
 71
     0
 42
3.5
  3
txt
  4

  0
ENDTAB
  0
TABLE
  2
VIEW
  5
6
330
0
100
AcDbSymbolTable
 70
     0
  0
ENDTAB
  0
TABLE
  2
UCS
  5
7
330
0
100
AcDbSymbolTable
 70
     0
  0
ENDTAB
  0
TABLE
  2
APPID
  5
9
330
0
100
AcDbSymbolTable
 70
     1
  0
APPID
  5
12
330
9
100
AcDbSymbolTableRecord
100
AcDbRegAppTableRecord
  2
ACAD
 70
     0
  0
ENDTAB
  0
TABLE
  2
DIMSTYLE
  5
A
330
0
100
AcDbSymbolTable
 70
     1
100
AcDbDimStyleTable
  0
DIMSTYLE
105
27
330
A
100
AcDbSymbolTableRecord
100
AcDbDimStyleTableRecord
  2
ISO-25
 70
     0
 41
2.5
 42
0.625
 43
3.75
 44
1.25
 73
     0
 74
     0
 77
     1
 78
     8
140
2.5
141
2.5
143
0.0393700787
147
0.625
171
     3
172
     1
178
     0
271
     2
272
     2
274
     3
278
    44
283
     0
284
     8
340
11
  0
ENDTAB
  0
TABLE
  2
BLOCK_RECORD
  5
1
330
0
100
AcDbSymbolTable
 70
     2
  0
BLOCK_RECORD
  5
1F
330
1
100
AcDbSymbolTableRecord
100
AcDbBlockTableRecord
  2
*Model_Space
340
22
  0
BLOCK_RECORD
  5
1B
330
1
100
AcDbSymbolTableRecord
100
AcDbBlockTableRecord
  2
*Paper_Space
340
1E
  0
BLOCK_RECORD
  5
23
330
1
100
AcDbSymbolTableRecord
100
AcDbBlockTableRecord
  2
*Paper_Space0
340
26
  0
BLOCK_RECORD
  5
88
330
1
100
AcDbSymbolTableRecord
100
AcDbBlockTableRecord
  2
SW_CENTERMARKSYMBOL_0
340
0
102
{BLKREFS
331
93
102
}
  0
ENDTAB
  0
ENDSEC
  0
SECTION
  2
BLOCKS
  0
BLOCK
  5
20
330
1F
100
AcDbEntity
  8
0
100
AcDbBlockBegin
  2
*Model_Space
 70
     0
 10
0.0
 20
0.0
 30
0.0
  3
*Model_Space
  1

  0
ENDBLK
  5
21
330
1F
100
AcDbEntity
  8
0
100
AcDbBlockEnd
  0
BLOCK
  5
1C
330
1B
100
AcDbEntity
 67
     1
  8
0
100
AcDbBlockBegin
  2
*Paper_Space
 70
     0
 10
0.0
 20
0.0
 30
0.0
  3
*Paper_Space
  1

  0
ENDBLK
  5
1D
330
1B
100
AcDbEntity
 67
     1
  8
0
100
AcDbBlockEnd
  0
BLOCK
  5
24
330
23
100
AcDbEntity
  8
0
100
AcDbBlockBegin
  2
*Paper_Space0
 70
     0
 10
0.0
 20
0.0
 30
0.0
  3
*Paper_Space0
  1

  0
ENDBLK
  5
25
330
23
100
AcDbEntity
  8
0
100
AcDbBlockEnd
  0
BLOCK
  5
89
330
88
100
AcDbEntity
  8
0
100
AcDbBlockBegin
  2
SW_CENTERMARKSYMBOL_0
 70
     0
 10
0.0
 20
0.0
 30
0.0
  3
SW_CENTERMARKSYMBOL_0
  1

  0
LINE
  5
8B
330
88
100
AcDbEntity
  8
FORMAT
 62
     0
100
AcDbLine
 10
0.0
 20
0.0
 30
0.0
 11
0.0
 21
2.5
 31
0.0
  0
LINE
  5
8C
330
88
100
AcDbEntity
  8
FORMAT
 62
     0
100
AcDbLine
 10
0.0
 20
0.0
 30
0.0
 11
-2.5
 21
0.0
 31
0.0
  0
LINE
  5
8D
330
88
100
AcDbEntity
  8
FORMAT
 62
     0
100
AcDbLine
 10
0.0
 20
0.0
 30
0.0
 11
0.0
 21
-2.5
 31
0.0
  0
LINE
  5
8E
330
88
100
AcDbEntity
  8
FORMAT
 62
     0
100
AcDbLine
 10
0.0
 20
0.0
 30
0.0
 11
2.5
 21
0.0
 31
0.0
  0
LINE
  5
8F
330
88
100
AcDbEntity
  8
FORMAT
 62
     0
100
AcDbLine
 10
0.0
 20
5.0
 30
0.0
 11
0.0
 21
27.5
 31
0.0
  0
LINE
  5
90
330
88
100
AcDbEntity
  8
FORMAT
 62
     0
100
AcDbLine
 10
-5.0
 20
0.0
 30
0.0
 11
-27.5
 21
0.0
 31
0.0
  0
LINE
  5
91
330
88
100
AcDbEntity
  8
FORMAT
 62
     0
100
AcDbLine
 10
0.0
 20
-5.0
 30
0.0
 11
0.0
 21
-27.5
 31
0.0
  0
LINE
  5
92
330
88
100
AcDbEntity
  8
FORMAT
 62
     0
100
AcDbLine
 10
5.0
 20
0.0
 30
0.0
 11
27.5
 21
0.0
 31
0.0
  0
ENDBLK
  5
8A
330
88
100
AcDbEntity
  8
0
100
AcDbBlockEnd
  0
ENDSEC
  0
SECTION
  2
ENTITIES
  0
CIRCLE
  5
83
330
1F
100
AcDbEntity
  8
0
  6
Continuous
 62
     7
370
    25
100
AcDbCircle
 10
139.395004093
 20
107.5851680021
 30
0.0
 40
25.0
  0
CIRCLE
  5
84
330
1F
100
AcDbEntity
  8
0
  6
Continuous
 62
     7
370
    25
100
AcDbCircle
 10
139.395004093
 20
107.5851680021
 30
0.0
 40
20.40000000000001
  0
CIRCLE
  5
85
330
1F
100
AcDbEntity
  8
0
  6
Continuous
 62
     7
370
    25
100
AcDbCircle
 10
139.395004093
 20
107.5851680021
 30
0.0
 40
20.35246136588877
  0
CIRCLE
  5
86
330
1F
100
AcDbEntity
  8
0
  6
Continuous
 62
     7
370
    25
100
AcDbCircle
 10
139.395004093
 20
107.5851680021
 30
0.0
 40
16.34753863411123
  0
CIRCLE
  5
87
330
1F
100
AcDbEntity
  8
0
  6
Continuous
 62
     7
370
    25
100
AcDbCircle
 10
139.395004093
 20
107.5851680021
 30
0.0
 40
16.3
  0
INSERT
  5
93
330
1F
100
AcDbEntity
  8
FORMAT
 62
     7
100
AcDbBlockReference
  2
SW_CENTERMARKSYMBOL_0
 10
139.395004093
 20
107.5851680021
 30
0.0
  0
LINE
  5
94
330
1F
100
AcDbEntity
  8
0
  6
Continuous
 62
     7
370
    25
100
AcDbLine
 10
-34.4077869164
 20
132.5851683746
 30
0.0
 11
-89.2695634472
 21
132.5851683746
 31
0.0
  0
LINE
  5
95
330
1F
100
AcDbEntity
  8
0
  6
Continuous
 62
     7
370
    25
100
AcDbLine
 10
-89.2695634472
 20
82.5851676296
 30
0.0
 11
-34.4077869164
 21
82.5851676296
 31
0.0
  0
ARC
  5
96
330
1F
100
AcDbEntity
  8
0
  6
Continuous
 62
     7
370
    25
100
AcDbCircle
 10
-34.4077867276
 20
130.5851680021
 30
0.0
 40
2.0
100
AcDbArc
 50
82.092837297
 51
90.0
  0
ARC
  5
97
330
1F
100
AcDbEntity
  8
0
  6
Continuous
 62
     7
370
    25
100
AcDbCircle
 10
-34.4077867276
 20
84.5851680021
 30
0.0
 40
2.0
100
AcDbArc
 50
270.0
 51
277.907162703
  0
LINE
  5
98
330
1F
100
AcDbEntity
  8
0
  6
Continuous
 62
     7
370
    25
100
AcDbLine
 10
-34.1326500135
 20
82.6041833739
 30
0.0
 11
1.5935265613
 21
87.5661527048
 31
0.0
  0
LINE
  5
99
330
1F
100
AcDbEntity
  8
0
  6
Continuous
 62
     7
370
    25
100
AcDbLine
 10
1.5935265613
 20
127.6041832994
 30
0.0
 11
-34.1326500135
 21
132.5661526303
 31
0.0
  0
ARC
  5
9A
330
1F
100
AcDbEntity
  8
0
  6
Continuous
 62
     7
370
    25
100
AcDbCircle
 10
1.868664225
 20
129.5851680021
 30
0.0
 40
2.0
100
AcDbArc
 50
262.092837297
 51
270.0
  0
ARC
  5
9B
330
1F
100
AcDbEntity
  8
0
  6
Continuous
 62
     7
370
    25
100
AcDbCircle
 10
1.868664225
 20
85.5851680021
 30
0.0
 40
1.999999999999997
100
AcDbArc
 50
90.0
 51
97.907162703
  0
LINE
  5
9C
330
1F
100
AcDbEntity
  8
0
  6
Continuous
 62
     7
370
    25
100
AcDbLine
 10
50.7304371489
 20
127.5851675551
 30
0.0
 11
1.8686634643
 21
127.5851675551
 31
0.0
  0
LINE
  5
9D
330
1F
100
AcDbEntity
  8
0
  6
Continuous
 62
     7
370
    25
100
AcDbLine
 10
1.8686634643
 20
87.5851684491
 30
0.0
 11
50.7304371489
 21
87.5851684491
 31
0.0
  0
LINE
  5
9E
330
1F
100
AcDbEntity
  8
0
  6
Continuous
 62
     7
370
    25
100
AcDbLine
 10
-89.2695634472
 20
132.5851683746
 30
0.0
 11
-89.2695634472
 21
82.5851676296
 31
0.0
  0
LINE
  5
9F
330
1F
100
AcDbEntity
  8
0
  6
Continuous
 62
     7
370
    25
100
AcDbLine
 10
50.7304371489
 20
127.5851675551
 30
0.0
 11
50.7304371489
 21
87.5851684491
 31
0.0
  0
LINE
  5
A0
330
1F
100
AcDbEntity
  8
0
  6
Continuous
 62
     1
370
    25
100
AcDbLine
 10
-34.4077869164
 20
132.5851683746
 30
0.0
 11
-34.4077869164
 21
82.5851676296
 31
0.0
  0
LINE
  5
A1
330
1F
100
AcDbEntity
  8
0
  6
Continuous
 62
     1
370
    25
100
AcDbLine
 10
-34.1326500135
 20
132.5661526303
 30
0.0
 11
-34.1326500135
 21
82.6041833739
 31
0.0
  0
LINE
  5
A2
330
1F
100
AcDbEntity
  8
0
  6
Continuous
 62
     1
370
    25
100
AcDbLine
 10
1.5935265613
 20
127.6041832994
 30
0.0
 11
1.5935265613
 21
87.5661527048
 31
0.0
  0
LINE
  5
A3
330
1F
100
AcDbEntity
  8
0
  6
Continuous
 62
     1
370
    25
100
AcDbLine
 10
1.8686634643
 20
127.5851675551
 30
0.0
 11
1.8686634643
 21
87.5851684491
 31
0.0
  0
LINE
  5
A4
330
1F
100
AcDbEntity
  8
0
  6
Continuous
 62
     7
370
    25
100
AcDbLine
 10
286.7064795638
 20
82.5851676296
 30
0.0
 11
341.5682560946
 21
82.5851676296
 31
0.0
  0
LINE
  5
A5
330
1F
100
AcDbEntity
  8
0
  6
Continuous
 62
     7
370
    25
100
AcDbLine
 10
341.5682560946
 20
132.5851683746
 30
0.0
 11
286.7064795638
 21
132.5851683746
 31
0.0
  0
ARC
  5
A6
330
1F
100
AcDbEntity
  8
0
  6
Continuous
 62
     7
370
    25
100
AcDbCircle
 10
286.706479375
 20
84.5851680021
 30
0.0
 40
2.0
100
AcDbArc
 50
262.092837297
 51
270.0
  0
ARC
  5
A7
330
1F
100
AcDbEntity
  8
0
  6
Continuous
 62
     7
370
    25
100
AcDbCircle
 10
286.706479375
 20
130.5851680021
 30
0.0
 40
2.0
100
AcDbArc
 50
90.0
 51
97.907162703
  0
LINE
  5
A8
330
1F
100
AcDbEntity
  8
0
  6
Continuous
 62
     7
370
    25
100
AcDbLine
 10
286.4313426609
 20
132.5661526303
 30
0.0
 11
250.7051660861
 21
127.6041832994
 31
0.0
  0
LINE
  5
A9
330
1F
100
AcDbEntity
  8
0
  6
Continuous
 62
     7
370
    25
100
AcDbLine
 10
250.7051660861
 20
87.5661527048
 30
0.0
 11
286.4313426609
 21
82.6041833739
 31
0.0
  0
ARC
  5
AA
330
1F
100
AcDbEntity
  8
0
  6
Continuous
 62
     7
370
    25
100
AcDbCircle
 10
250.4300284224
 20
85.5851680021
 30
0.0
 40
1.999999999999996
100
AcDbArc
 50
82.092837297
 51
90.0
  0
ARC
  5
AB
330
1F
100
AcDbEntity
  8
0
  6
Continuous
 62
     7
370
    25
100
AcDbCircle
 10
250.4300284224
 20
129.5851680021
 30
0.0
 40
2.0
100
AcDbArc
 50
270.0
 51
277.907162703
  0
LINE
  5
AC
330
1F
100
AcDbEntity
  8
0
  6
Continuous
 62
     7
370
    25
100
AcDbLine
 10
201.5682554985
 20
87.5851684491
 30
0.0
 11
250.4300291831
 21
87.5851684491
 31
0.0
  0
LINE
  5
AD
330
1F
100
AcDbEntity
  8
0
  6
Continuous
 62
     7
370
    25
100
AcDbLine
 10
250.4300291831
 20
127.5851675551
 30
0.0
 11
201.5682554985
 21
127.5851675551
 31
0.0
  0
LINE
  5
AE
330
1F
100
AcDbEntity
  8
0
  6
Continuous
 62
     7
370
    25
100
AcDbLine
 10
341.5682560946
 20
107.5851680021
 30
0.0
 11
341.5682560946
 21
132.5851683746
 31
0.0
  0
LINE
  5
AF
330
1F
100
AcDbEntity
  8
0
  6
Continuous
 62
     7
370
    25
100
AcDbLine
 10
341.5682560946
 20
82.5851676296
 30
0.0
 11
341.5682560946
 21
107.5851680021
 31
0.0
  0
LINE
  5
B0
330
1F
100
AcDbEntity
  8
0
  6
Continuous
 62
     7
370
    25
100
AcDbLine
 10
201.5682554985
 20
107.5851680021
 30
0.0
 11
201.5682554985
 21
127.5851675551
 31
0.0
  0
LINE
  5
B1
330
1F
100
AcDbEntity
  8
0
  6
Continuous
 62
     7
370
    25
100
AcDbLine
 10
201.5682554985
 20
87.5851684491
 30
0.0
 11
201.5682554985
 21
107.5851680021
 31
0.0
  0
LINE
  5
B2
330
1F
100
AcDbEntity
  8
0
  6
Continuous
 62
     1
370
    25
100
AcDbLine
 10
286.7064795638
 20
107.5851680021
 30
0.0
 11
286.7064795638
 21
132.5851683746
 31
0.0
  0
LINE
  5
B3
330
1F
100
AcDbEntity
  8
0
  6
Continuous
 62
     1
370
    25
100
AcDbLine
 10
286.7064795638
 20
82.5851676296
 30
0.0
 11
286.7064795638
 21
107.5851680021
 31
0.0
  0
LINE
  5
B4
330
1F
100
AcDbEntity
  8
0
  6
Continuous
 62
     1
370
    25
100
AcDbLine
 10
286.4313426609
 20
107.5851680021
 30
0.0
 11
286.4313426609
 21
132.5661526303
 31
0.0
  0
LINE
  5
B5
330
1F
100
AcDbEntity
  8
0
  6
Continuous
 62
     1
370
    25
100
AcDbLine
 10
286.4313426609
 20
82.6041833739
 30
0.0
 11
286.4313426609
 21
107.5851680021
 31
0.0
  0
LINE
  5
B6
330
1F
100
AcDbEntity
  8
0
  6
Continuous
 62
     1
370
    25
100
AcDbLine
 10
250.7051660861
 20
107.5851680021
 30
0.0
 11
250.7051660861
 21
127.6041832994
 31
0.0
  0
LINE
  5
B7
330
1F
100
AcDbEntity
  8
0
  6
Continuous
 62
     1
370
    25
100
AcDbLine
 10
250.7051660861
 20
87.5661527048
 30
0.0
 11
250.7051660861
 21
107.5851680021
 31
0.0
  0
LINE
  5
B8
330
1F
100
AcDbEntity
  8
0
  6
Continuous
 62
     1
370
    25
100
AcDbLine
 10
250.4300291831
 20
107.5851680021
 30
0.0
 11
250.4300291831
 21
127.5851675551
 31
0.0
  0
LINE
  5
B9
330
1F
100
AcDbEntity
  8
0
  6
Continuous
 62
     1
370
    25
100
AcDbLine
 10
250.4300291831
 20
87.5851684491
 30
0.0
 11
250.4300291831
 21
107.5851680021
 31
0.0
  0
LINE
  5
BA
330
1F
100
AcDbEntity
  8
0
  6
Continuous
 62
     7
370
    25
100
AcDbLine
 10
164.3950044656
 20
283.4028693416
 30
0.0
 11
164.3950044656
 21
338.2646458723
 31
0.0
  0
LINE
  5
BB
330
1F
100
AcDbEntity
  8
0
  6
Continuous
 62
     7
370
    25
100
AcDbLine
 10
114.3950037205
 20
338.2646458723
 30
0.0
 11
114.3950037205
 21
283.4028693416
 31
0.0
  0
ARC
  5
BC
330
1F
100
AcDbEntity
  8
0
  6
Continuous
 62
     7
370
    25
100
AcDbCircle
 10
162.395004093
 20
283.4028691528
 30
0.0
 40
2.0
100
AcDbArc
 50
352.092837297
 51
0.0
  0
ARC
  5
BD
330
1F
100
AcDbEntity
  8
0
  6
Continuous
 62
     7
370
    25
100
AcDbCircle
 10
116.395004093
 20
283.4028691528
 30
0.0
 40
2.0
100
AcDbArc
 50
180.0
 51
187.907162703
  0
LINE
  5
BE
330
1F
100
AcDbEntity
  8
0
  6
Continuous
 62
     7
370
    25
100
AcDbLine
 10
114.4140194648
 20
283.1277324386
 30
0.0
 11
119.3759887958
 21
247.4015558638
 31
0.0
  0
LINE
  5
BF
330
1F
100
AcDbEntity
  8
0
  6
Continuous
 62
     7
370
    25
100
AcDbLine
 10
159.4140193903
 20
247.4015558638
 30
0.0
 11
164.3759887212
 21
283.1277324386
 31
0.0
  0
ARC
  5
C0
330
1F
100
AcDbEntity
  8
0
  6
Continuous
 62
     7
370
    25
100
AcDbCircle
 10
161.395004093
 20
247.1264182002
 30
0.0
 40
1.999999999999996
100
AcDbArc
 50
172.092837297
 51
180.0
  0
ARC
  5
C1
330
1F
100
AcDbEntity
  8
0
  6
Continuous
 62
     7
370
    25
100
AcDbCircle
 10
117.395004093
 20
247.1264182002
 30
0.0
 40
2.0
100
AcDbArc
 50
0.0
 51
7.907162703
  0
LINE
  5
C2
330
1F
100
AcDbEntity
  8
0
  6
Continuous
 62
     7
370
    25
100
AcDbLine
 10
159.395003646
 20
198.2646452763
 30
0.0
 11
159.395003646
 21
247.1264189609
 31
0.0
  0
LINE
  5
C3
330
1F
100
AcDbEntity
  8
0
  6
Continuous
 62
     7
370
    25
100
AcDbLine
 10
119.3950045401
 20
247.1264189609
 30
0.0
 11
119.3950045401
 21
198.2646452763
 31
0.0
  0
LINE
  5
C4
330
1F
100
AcDbEntity
  8
0
  6
Continuous
 62
     7
370
    25
100
AcDbLine
 10
164.3950044656
 20
338.2646458723
 30
0.0
 11
114.3950037205
 21
338.2646458723
 31
0.0
  0
LINE
  5
C5
330
1F
100
AcDbEntity
  8
0
  6
Continuous
 62
     7
370
    25
100
AcDbLine
 10
159.395003646
 20
198.2646452763
 30
0.0
 11
119.3950045401
 21
198.2646452763
 31
0.0
  0
LINE
  5
C6
330
1F
100
AcDbEntity
  8
0
  6
Continuous
 62
     1
370
    25
100
AcDbLine
 10
164.3950044656
 20
283.4028693416
 30
0.0
 11
114.3950037205
 21
283.4028693416
 31
0.0
  0
LINE
  5
C7
330
1F
100
AcDbEntity
  8
0
  6
Continuous
 62
     1
370
    25
100
AcDbLine
 10
164.3759887212
 20
283.1277324386
 30
0.0
 11
114.4140194648
 21
283.1277324386
 31
0.0
  0
LINE
  5
C8
330
1F
100
AcDbEntity
  8
0
  6
Continuous
 62
     1
370
    25
100
AcDbLine
 10
159.4140193903
 20
247.4015558638
 30
0.0
 11
119.3759887958
 21
247.4015558638
 31
0.0
  0
LINE
  5
C9
330
1F
100
AcDbEntity
  8
0
  6
Continuous
 62
     1
370
    25
100
AcDbLine
 10
159.395003646
 20
247.1264189609
 30
0.0
 11
119.3950045401
 21
247.1264189609
 31
0.0
  0
LINE
  5
CA
330
1F
100
AcDbEntity
  8
0
  6
Continuous
 62
     7
370
    25
100
AcDbLine
 10
114.3950037205
 20
-53.5602696909
 30
0.0
 11
114.3950037205
 21
-108.4220462216
 31
0.0
  0
LINE
  5
CB
330
1F
100
AcDbEntity
  8
0
  6
Continuous
 62
     7
370
    25
100
AcDbLine
 10
164.3950044656
 20
-108.4220462216
 30
0.0
 11
164.3950044656
 21
-53.5602696909
 31
0.0
  0
ARC
  5
CC
330
1F
100
AcDbEntity
  8
0
  6
Continuous
 62
     7
370
    25
100
AcDbCircle
 10
116.395004093
 20
-53.5602695021
 30
0.0
 40
2.0
100
AcDbArc
 50
172.092837297
 51
180.0
  0
ARC
  5
CD
330
1F
100
AcDbEntity
  8
0
  6
Continuous
 62
     7
370
    25
100
AcDbCircle
 10
162.395004093
 20
-53.5602695021
 30
0.0
 40
2.0
100
AcDbArc
 50
0.0
 51
7.907162703
  0
LINE
  5
CE
330
1F
100
AcDbEntity
  8
0
  6
Continuous
 62
     7
370
    25
100
AcDbLine
 10
164.3759887212
 20
-53.2851327879
 30
0.0
 11
159.4140193903
 21
-17.5589562131
 31
0.0
  0
LINE
  5
CF
330
1F
100
AcDbEntity
  8
0
  6
Continuous
 62
     7
370
    25
100
AcDbLine
 10
119.3759887958
 20
-17.5589562131
 30
0.0
 11
114.4140194648
 21
-53.2851327879
 31
0.0
  0
ARC
  5
D0
330
1F
100
AcDbEntity
  8
0
  6
Continuous
 62
     7
370
    25
100
AcDbCircle
 10
117.395004093
 20
-17.2838185495
 30
0.0
 40
2.0
100
AcDbArc
 50
352.092837297
 51
0.0
  0
ARC
  5
D1
330
1F
100
AcDbEntity
  8
0
  6
Continuous
 62
     7
370
    25
100
AcDbCircle
 10
161.395004093
 20
-17.2838185495
 30
0.0
 40
1.999999999999997
100
AcDbArc
 50
180.0
 51
187.907162703
  0
LINE
  5
D2
330
1F
100
AcDbEntity
  8
0
  6
Continuous
 62
     7
370
    25
100
AcDbLine
 10
119.3950045401
 20
31.5779543744
 30
0.0
 11
119.3950045401
 21
-17.2838193102
 31
0.0
  0
LINE
  5
D3
330
1F
100
AcDbEntity
  8
0
  6
Continuous
 62
     7
370
    25
100
AcDbLine
 10
159.395003646
 20
-17.2838193102
 30
0.0
 11
159.395003646
 21
31.5779543744
 31
0.0
  0
LINE
  5
D4
330
1F
100
AcDbEntity
  8
0
  6
Continuous
 62
     7
370
    25
100
AcDbLine
 10
114.3950037205
 20
-108.4220462216
 30
0.0
 11
164.3950044656
 21
-108.4220462216
 31
0.0
  0
LINE
  5
D5
330
1F
100
AcDbEntity
  8
0
  6
Continuous
 62
     7
370
    25
100
AcDbLine
 10
119.3950045401
 20
31.5779543744
 30
0.0
 11
159.395003646
 21
31.5779543744
 31
0.0
  0
LINE
  5
D6
330
1F
100
AcDbEntity
  8
0
  6
Continuous
 62
     1
370
    25
100
AcDbLine
 10
114.3950037205
 20
-53.5602696909
 30
0.0
 11
164.3950044656
 21
-53.5602696909
 31
0.0
  0
LINE
  5
D7
330
1F
100
AcDbEntity
  8
0
  6
Continuous
 62
     1
370
    25
100
AcDbLine
 10
114.4140194648
 20
-53.2851327879
 30
0.0
 11
164.3759887212
 21
-53.2851327879
 31
0.0
  0
LINE
  5
D8
330
1F
100
AcDbEntity
  8
0
  6
Continuous
 62
     1
370
    25
100
AcDbLine
 10
119.3759887958
 20
-17.5589562131
 30
0.0
 11
159.4140193903
 21
-17.5589562131
 31
0.0
  0
LINE
  5
D9
330
1F
100
AcDbEntity
  8
0
  6
Continuous
 62
     1
370
    25
100
AcDbLine
 10
119.3950045401
 20
-17.2838193102
 30
0.0
 11
159.395003646
 21
-17.2838193102
 31
0.0
  0
LINE
  5
DA
330
1F
100
AcDbEntity
  8
0
  6
Continuous
 62
     7
370
    25
100
AcDbLine
 10
287.3784512985
 20
2.8570125313
 30
0.0
 11
248.5853170857
 21
25.2518122256
 31
0.0
  0
LINE
  5
DB
330
1F
100
AcDbEntity
  8
0
  6
Continuous
 62
     7
370
    25
100
AcDbLine
 10
223.5873495185
 20
-18.0506311366
 30
0.0
 11
262.3804837313
 21
-40.445430831
 31
0.0
  0
SPLINE
  5
DC
330
1F
100
AcDbEntity
  8
0
  6
Continuous
 62
     7
370
    25
100
AcDbSpline
210
0.0
220
0.0
230
1.0
 70
     8
 71
     3
 72
    10
 73
     6
 74
     0
 42
0.000000001
 43
0.00000001
 40
0.0
 40
0.0
 40
0.0
 40
0.0
 40
0.2557503907584494
 40
0.8295346967864152
 40
1.0
 40
1.0
 40
1.0
 40
1.0
 10
288.7824339451988
 20
1.855731454237081
 30
0.0
 10
288.6729041561325
 20
1.951275481430516
 30
0.0
 10
288.3176407288011
 20
2.261175636001599
 30
0.0
 10
287.8526826678584
 20
2.586890204055385
 30
0.0
 10
287.4832824799532
 20
2.787607077482258
 30
0.0
 10
287.3986738832452
 20
2.833579910069516
 30
0.0
  0
SPLINE
  5
DD
330
1F
100
AcDbEntity
  8
0
  6
Continuous
 62
     7
370
    25
100
AcDbSpline
210
0.0
220
0.0
230
1.0
 70
     8
 71
     3
 72
     9
 73
     5
 74
     0
 42
0.000000001
 43
0.00000001
 40
0.0
 40
0.0
 40
0.0
 40
0.0
 40
0.4596159100511704
 40
1.0
 40
1.0
 40
1.0
 40
1.0
 10
262.3650540334627
 20
-40.42799322933348
 30
0.0
 10
262.5929789851635
 20
-40.55771562187052
 30
0.0
 10
263.0888820788477
 20
-40.83995648799414
 30
0.0
 10
263.6234402553904
 20
-41.0462394081021
 30
0.0
 10
263.9123069891461
 20
-41.15771141615664
 30
0.0
  0
LINE
  5
DE
330
1F
100
AcDbEntity
  8
0
  6
Continuous
 62
     7
370
    25
100
AcDbLine
 10
263.8718091361
 20
-41.1449342585
 30
0.0
 11
291.3591243343
 21
-51.3112918964
 31
0.0
  0
LINE
  5
DF
330
1F
100
AcDbEntity
  8
0
  6
Continuous
 62
     7
370
    25
100
AcDbLine
 10
311.2797288915
 20
-16.8040535911
 30
0.0
 11
288.7299914119
 21
1.91536498
 31
0.0
  0
LINE
  5
E0
330
1F
100
AcDbEntity
  8
0
  6
Continuous
 62
     7
370
    25
100
AcDbLine
 10
345.0804701165
 20
-36.2270007899
 30
0.0
 11
310.9245547649
 21
-16.5092105624
 31
0.0
  0
LINE
  5
E1
330
1F
100
AcDbEntity
  8
0
  6
Continuous
 62
     7
370
    25
100
AcDbLine
 10
290.9261807111
 20
-51.1511640354
 30
0.0
 11
325.0820960628
 21
-70.8689542629
 31
0.0
  0
LWPOLYLINE
  5
E2
330
1F
100
AcDbEntity
  8
0
  6
Continuous
 62
     7
370
    25
100
AcDbPolyline
 90
       97
 70
   128
 43
0.0
 10
218.408663509
 20
-6.6045110054
 10
218.446512696
 20
-5.247553034
 10
218.5598982552
 20
-3.8527060031
 10
218.7483354978
 20
-2.4259422577
 10
219.0110157312
 20
-0.9733725165
 10
219.3468154783
 20
0.4987836901
 10
219.7542964781
 20
1.9842222596
 10
220.2317135875
 20
3.4765828442
 10
220.7770226844
 20
4.9694739451
 10
221.38788857
 20
6.4565033303
 10
222.0616955055
 20
7.9313031291
 10
222.7955577489
 20
9.3875587283
 10
223.5863327257
 20
10.8190331062
 10
224.4306355173
 20
12.2195964891
 10
225.3248500556
 20
13.5832525861
 10
226.2651462459
 20
14.9041614017
 10
227.2474984055
 20
16.1766666103
 10
228.2676997522
 20
17.3953191295
 10
229.3213821602
 20
18.5549006928
 10
230.4040326241
 20
19.6504455206
 10
231.511015649
 20
20.6772623722
 10
232.6375910315
 20
21.6309539353
 10
233.7789344392
 20
22.5074378325
 10
234.9301584018
 20
23.3029587387
 10
236.0863333021
 20
24.0141111458
 10
237.2425082023
 20
24.6378498645
 10
238.3937321649
 20
25.1715038532
 10
239.5350755726
 20
25.6127870052
 10
240.6616509552
 20
25.9598116922
 10
241.76863398
 20
26.2110902362
 10
242.8512844439
 20
26.3655470269
 10
243.9049668519
 20
26.4225212768
 10
244.9251681986
 20
26.3817681601
 10
245.9075203582
 20
26.2434626129
 10
246.8478165485
 20
26.0081966701
 10
247.7420310869
 20
25.676978703
 10
248.5863338784
 20
25.2512265738
 10
249.3771088552
 20
24.7327615501
 10
250.1109710986
 20
24.1238052618
 10
250.7847780341
 20
23.4269663914
 10
251.3956439197
 20
22.6452277452
 10
251.9409530166
 20
21.7819371262
 10
252.418370126
 20
20.8407906032
 10
252.8258511258
 20
19.8258195818
 10
253.1616508729
 20
18.7413695108
 10
253.4243311063
 20
17.5920839114
 10
253.6127683489
 20
16.3828851753
 10
253.7261539081
 20
15.1189503245
 10
253.7640030951
 20
13.8056920943
 10
253.7261539081
 20
12.4487341229
 10
253.6127683489
 20
11.0538870921
 10
253.4243311063
 20
9.6271233467
 10
253.1616508729
 20
8.1745536055
 10
252.8258511258
 20
6.7023973989
 10
252.418370126
 20
5.2169588294
 10
251.9409530166
 20
3.7245982448
 10
251.3956439197
 20
2.2317071439
 10
250.7847780341
 20
0.7446777586
 10
250.1109710986
 20
-0.7301220401
 10
249.3771088552
 20
-2.1863776393
 10
248.5863338784
 20
-3.6178520173
 10
247.7420310869
 20
-5.0184154001
 10
246.8478165485
 20
-6.3820714972
 10
245.9075203582
 20
-7.7029803127
 10
244.9251681986
 20
-8.9754855213
 10
243.9049668519
 20
-10.1941380406
 10
242.8512844439
 20
-11.3537196039
 10
241.76863398
 20
-12.4492644317
 10
240.6616509552
 20
-13.4760812832
 10
239.5350755726
 20
-14.4297728463
 10
238.3937321649
 20
-15.3062567435
 10
237.2425082023
 20
-16.1017776497
 10
236.0863333021
 20
-16.8129300568
 10
234.9301584018
 20
-17.4366687756
 10
233.7789344392
 20
-17.9703227643
 10
232.6375910315
 20
-18.4116059162
 10
231.511015649
 20
-18.7586306032
 10
230.4040326241
 20
-19.0099091472
 10
229.3213821602
 20
-19.1643659379
 10
228.2676997522
 20
-19.2213401878
 10
227.2474984055
 20
-19.1805870711
 10
226.2651462459
 20
-19.042281524
 10
225.3248500556
 20
-18.8070155812
 10
224.4306355173
 20
-18.475797614
 10
223.5863327257
 20
-18.0500454848
 10
222.7955577489
 20
-17.5315804612
 10
222.0616955055
 20
-16.9226241729
 10
221.38788857
 20
-16.2257853025
 10
220.7770226844
 20
-15.4440466562
 10
220.2317135875
 20
-14.5807560372
 10
219.7542964781
 20
-13.6396095142
 10
219.3468154783
 20
-12.6246384929
 10
219.0110157312
 20
-11.5401884218
 10
218.7483354978
 20
-10.3909028224
 10
218.5598982552
 20
-9.1817040863
 10
218.446512696
 20
-7.9177692356
 10
218.408663509
 20
-6.6045110054
  0
LWPOLYLINE
  5
E3
330
1F
100
AcDbEntity
  8
0
  6
Continuous
 62
     7
370
    25
100
AcDbPolyline
 90
       87
 70
   128
 43
0.0
 10
221.6613544453
 20
-4.7267724966
 10
221.6998371522
 20
-3.4886423297
 10
221.8150771728
 20
-2.2126886177
 10
222.0064594264
 20
-0.9057191568
 10
222.2729658033
 20
0.4252944147
 10
222.6131712132
 20
1.7732491271
 10
223.0252620246
 20
3.130953453
 10
223.5070400157
 20
4.4911641895
 10
224.0559329118
 20
5.846621819
 10
224.6690141412
 20
7.1900976559
 10
225.3430107375
 20
8.5144208423
 10
226.0743283649
 20
9.8125270151
 10
226.85906383
 20
11.0774898644
 10
227.6930307655
 20
12.3025595341
 10
228.5717800446
 20
13.4812010236
 10
229.4906228304
 20
14.6071242238
 10
230.4446562592
 20
15.6743245997
 10
231.4287904402
 20
16.6771048605
 10
232.4377747983
 20
17.6101175437
 10
233.4662257321
 20
18.4683825026
 10
234.5086559194
 20
19.2473205547
 10
235.5595039107
 20
19.9427781693
 10
236.6131626934
 20
20.5510424373
 10
237.6640106847
 20
21.068868088
 10
238.706440872
 20
21.4934943116
 10
239.7348918058
 20
21.8226535257
 10
240.7438761639
 20
22.0545893858
 10
241.728010345
 20
22.1880662645
 10
242.6820437737
 20
22.2223694393
 10
243.6008865595
 20
22.1573195383
 10
244.4796358386
 20
21.9932603704
 10
245.3136027741
 20
21.731068429
 10
246.0983382392
 20
21.3721418622
 10
246.8296558666
 20
20.9183970493
 10
247.5036524629
 20
20.372253769
 10
248.1167336923
 20
19.7366264525
 10
248.6656265884
 20
19.0149070713
 10
249.1474045796
 20
18.2109453633
 10
249.5594953909
 20
17.3290309608
 10
249.8997008008
 20
16.3738690538
 10
250.1662071777
 20
15.3505571954
 10
250.3575894314
 20
14.2645529813
 10
250.4728294519
 20
13.1216525649
 10
250.5113121588
 20
11.9279535856
 10
250.4728294519
 20
10.6898234186
 10
250.3575894314
 20
9.4138697067
 10
250.1662071777
 20
8.1069002458
 10
249.8997008008
 20
6.7758866742
 10
249.5594953909
 20
5.4279319618
 10
249.1474045796
 20
4.070227636
 10
248.6656265884
 20
2.7100168995
 10
248.1167336923
 20
1.35455927
 10
247.5036524629
 20
0.0110834331
 10
246.8296558666
 20
-1.3132397533
 10
246.0983382392
 20
-2.6113459261
 10
245.3136027741
 20
-3.8763087754
 10
244.4796358386
 20
-5.1013784451
 10
243.6008865595
 20
-6.2800199346
 10
242.6820437737
 20
-7.4059431349
 10
241.728010345
 20
-8.4731435107
 10
240.7438761639
 20
-9.4759237715
 10
239.7348918058
 20
-10.4089364547
 10
238.706440872
 20
-11.2672014137
 10
237.6640106847
 20
-12.0461394657
 10
236.6131626934
 20
-12.7415970804
 10
235.5595039107
 20
-13.3498613484
 10
234.5086559194
 20
-13.867686999
 10
233.4662257321
 20
-14.2923132227
 10
232.4377747983
 20
-14.6214724367
 10
231.4287904402
 20
-14.8534082968
 10
230.4446562592
 20
-14.9868851756
 10
229.4906228304
 20
-15.0211883504
 10
228.5717800446
 20
-14.9561384493
 10
227.6930307655
 20
-14.7920792815
 10
226.85906383
 20
-14.52988734
 10
226.0743283649
 20
-14.1709607733
 10
225.3430107375
 20
-13.7172159603
 10
224.6690141412
 20
-13.17107268
 10
224.0559329118
 20
-12.5354453635
 10
223.5070400157
 20
-11.8137259824
 10
223.0252620246
 20
-11.0097642744
 10
222.6131712132
 20
-10.1278498718
 10
222.2729658033
 20
-9.1726879649
 10
222.0064594264
 20
-8.1493761065
 10
221.8150771728
 20
-7.0633718923
 10
221.6998371522
 20
-5.9204714759
 10
221.6613544453
 20
-4.7267724966
  0
LINE
  5
E4
330
1F
100
AcDbEntity
  8
0
  6
Continuous
 62
     7
370
    25
100
AcDbLine
 10
288.7299914119
 20
1.91536498
 30
0.0
 11
288.7816502772
 21
1.8721369429
 31
0.0
  0
LINE
  5
E5
330
1F
100
AcDbEntity
  8
0
  6
Continuous
 62
     7
370
    25
100
AcDbLine
 10
263.9063919424
 20
-41.1576395151
 30
0.0
 11
263.8718091361
 21
-41.1449342585
 31
0.0
  0
LINE
  5
E6
330
1F
100
AcDbEntity
  8
0
  6
Continuous
 62
     7
370
    25
100
AcDbLine
 10
291.3591243343
 20
-51.3112918964
 30
0.0
 11
291.3241174254
 21
-51.2982360266
 31
0.0
  0
LWPOLYLINE
  5
E7
330
1F
100
AcDbEntity
  8
0
  6
Continuous
 62
     7
370
    25
100
AcDbPolyline
 90
       45
 70
   128
 43
0.0
 10
345.0804701165
 20
-36.2270007899
 10
345.1732544279
 20
-36.2815670051
 10
345.8773649475
 20
-36.7669992748
 10
346.5225113674
 20
-37.3440842237
 10
347.1051691576
 20
-38.009668642
 10
347.6221568894
 20
-38.7601183592
 10
348.070650724
 20
-39.5913342155
 10
348.4482008759
 20
-40.4987763976
 10
348.7527461007
 20
-41.4774883954
 10
348.9826215979
 20
-42.5221260896
 10
349.1365734988
 20
-43.626982469
 10
349.2137601835
 20
-44.7860239894
 10
349.2137601835
 20
-45.9929203282
 10
349.1365734988
 20
-47.2410796978
 10
348.9826215979
 20
-48.5236851585
 10
348.7527461007
 20
-49.8337314524
 10
348.4482008759
 20
-51.1640638823
 10
348.070650724
 20
-52.5074161912
 10
347.6221568894
 20
-53.8564520068
 10
347.1051691576
 20
-55.2038030538
 10
346.5225113674
 20
-56.5421098373
 10
345.8773649475
 20
-57.8640649877
 10
345.1732544279
 20
-59.1624459592
 10
344.4140250501
 20
-60.4301629367
 10
343.6038236688
 20
-61.6602926751
 10
342.7470750446
 20
-62.8461149987
 10
341.8484587948
 20
-63.9811542447
 10
340.9128817345
 20
-65.0592104392
 10
339.9454554861
 20
-66.0743973186
 10
338.9514622352
 20
-67.0211681822
 10
337.9363313519
 20
-67.8943537224
 10
336.9056074518
 20
-68.6891850263
 10
335.864919691
 20
-69.4013189058
 10
334.8199519053
 20
-70.0268688237
 10
333.7764114737
 20
-70.5624152643
 10
332.7399976667
 20
-71.0050361729
 10
331.71637123
 20
-71.3523123472
 10
330.7111227949
 20
-71.6023471944
 10
329.729742647
 20
-71.7537750581
 10
328.7775910092
 20
-71.8057692478
 10
327.859867749
 20
-71.7580458383
 10
326.981585378
 20
-71.6108640474
 10
326.1475400757
 20
-71.3650315566
 10
325.3622889702
 20
-71.0218864476
 10
325.0820960628
 20
-70.8689542629
  0
LWPOLYLINE
  5
E8
330
1F
100
AcDbEntity
  8
0
  6
Continuous
 62
     1
370
    25
100
AcDbPolyline
 90
       50
 70
   128
 43
0.0
 10
287.3784512985
 20
2.8570125313
 10
287.3794680912
 20
2.8564268794
 10
288.170243068
 20
2.3379618558
 10
288.9041053114
 20
1.7290055675
 10
289.5779122469
 20
1.0321666971
 10
290.1887781325
 20
0.2504280508
 10
290.7340872294
 20
-0.6128625682
 10
291.2115043389
 20
-1.5540090911
 10
291.6189853386
 20
-2.5689801125
 10
291.9547850858
 20
-3.6534301836
 10
292.2174653191
 20
-4.802715783
 10
292.4059025617
 20
-6.0119145191
 10
292.5192881209
 20
-7.2758493698
 10
292.557137308
 20
-8.5891076
 10
292.5192881209
 20
-9.9460655714
 10
292.4059025617
 20
-11.3409126023
 10
292.2174653191
 20
-12.7676763477
 10
291.9547850858
 20
-14.2202460889
 10
291.6189853386
 20
-15.6924022955
 10
291.2115043389
 20
-17.177840865
 10
290.7340872294
 20
-18.6702014496
 10
290.1887781325
 20
-20.1630925505
 10
289.5779122469
 20
-21.6501219357
 10
288.9041053114
 20
-23.1249217345
 10
288.170243068
 20
-24.5811773337
 10
287.3794680912
 20
-26.0126517116
 10
286.5351652997
 20
-27.4132150945
 10
285.6409507614
 20
-28.7768711915
 10
284.7006545711
 20
-30.0977800071
 10
283.7183024114
 20
-31.3702852156
 10
282.6981010647
 20
-32.5889377349
 10
281.6444186567
 20
-33.7485192982
 10
280.5617681929
 20
-34.844064126
 10
279.454785168
 20
-35.8708809776
 10
278.3282097855
 20
-36.8245725407
 10
277.1868663777
 20
-37.7010564379
 10
276.0356424151
 20
-38.4965773441
 10
274.8794675149
 20
-39.2077297512
 10
273.7232926147
 20
-39.8314684699
 10
272.5720686521
 20
-40.3651224586
 10
271.4307252443
 20
-40.8064056106
 10
270.3041498618
 20
-41.1534302976
 10
269.1971668369
 20
-41.4047088416
 10
268.1145163731
 20
-41.5591656323
 10
267.060833965
 20
-41.6161398822
 10
266.0406326183
 20
-41.5753867655
 10
265.0582804587
 20
-41.4370812183
 10
264.1179842684
 20
-41.2018152755
 10
263.2237697301
 20
-40.8705973084
 10
262.3804837313
 20
-40.445430831
  0
LWPOLYLINE
  5
E9
330
1F
100
AcDbEntity
  8
0
  6
Continuous
 62
     1
370
    25
100
AcDbPolyline
 90
       46
 70
   128
 43
0.0
 10
288.7816502772
 20
1.8721369429
 10
289.3646755352
 20
1.3329391412
 10
290.0196349269
 20
0.5941769597
 10
290.6092390445
 20
-0.229857398
 10
291.1309129791
 20
-1.1355598565
 10
291.5823742152
 20
-2.118969711
 10
291.9616484366
 20
-3.1757874993
 10
292.2670774282
 20
-4.3013921129
 10
292.4973256616
 20
-5.4908609503
 10
292.6513855638
 20
-6.7389931113
 10
292.7285841023
 20
-8.0403310707
 10
292.7285841023
 20
-9.3891838729
 10
292.6513855638
 20
-10.7796533676
 10
292.4973256616
 20
-12.2056593055
 10
292.2670774282
 20
-13.6609670947
 10
291.9616484366
 20
-15.1392125158
 10
291.5823742152
 20
-16.6339309991
 10
291.1309129791
 20
-18.1385869019
 10
290.6092390445
 20
-19.6466012647
 10
290.0196349269
 20
-21.1513780465
 10
289.3646755352
 20
-22.6463402455
 10
288.6472281723
 20
-24.1249481498
 10
287.8704275099
 20
-25.5807373585
 10
287.0376716378
 20
-27.0073423557
 10
286.152602307
 20
-28.398523885
 10
285.2190884666
 20
-29.7482005074
 10
284.2412130925
 20
-31.0504683722
 10
283.2232521143
 20
-32.2996346752
 10
282.1696566341
 20
-33.490235528
 10
281.0850331709
 20
-34.617065614
 10
279.9741255501
 20
-35.6751962481
 10
278.8417911958
 20
-36.6600027507
 10
277.6929808811
 20
-37.5671791801
 10
276.5327186421
 20
-38.3927560112
 10
275.366077988
 20
-39.1331245157
 10
274.198160169
 20
-39.7850462656
 10
273.034072198
 20
-40.3456734264
 10
271.8789046239
 20
-40.8125509412
 10
270.7377082363
 20
-41.1836406254
 10
269.6154733206
 20
-41.4573164123
 10
268.5171076799
 20
-41.6323846454
 10
267.4474134207
 20
-41.7080777078
 10
266.4110685139
 20
-41.6840661878
 10
265.4126044043
 20
-41.5604535533
 10
264.456387242
 20
-41.3377809029
 10
263.9063919424
 20
-41.1576395151
  0
LWPOLYLINE
  5
EA
330
1F
100
AcDbEntity
  8
0
  6
Continuous
 62
     1
370
    25
100
AcDbPolyline
 90
       42
 70
   128
 43
0.0
 10
311.2797288915
 20
-16.8040535911
 10
311.7883465226
 20
-17.2707920694
 10
312.3715588072
 20
-17.9370092449
 10
312.8890378133
 20
-18.6881723224
 10
313.3379583847
 20
-19.5201783397
 10
313.7158667848
 20
-20.4284836808
 10
314.0207017692
 20
-21.4081261321
 10
314.2507959032
 20
-22.4537568213
 10
314.404894001
 20
-23.5596637938
 10
314.4821544426
 20
-24.7198070893
 10
314.4821544426
 20
-25.9278508715
 10
314.404894001
 20
-27.1771971742
 10
314.2507959032
 20
-28.4610220234
 10
314.0207017692
 20
-29.7723137449
 10
313.7158667848
 20
-31.1039111776
 10
313.3379583847
 20
-32.4485402701
 10
312.8890378133
 20
-33.7988589465
 10
312.3715588072
 20
-35.147490567
 10
311.7883465226
 20
-36.4870703133
 10
311.1425869977
 20
-37.8102820711
 10
310.4378073969
 20
-39.1098979716
 10
309.6778562543
 20
-40.3788202151
 10
308.866884376
 20
-41.6101194731
 10
308.0093211322
 20
-42.7970691065
 10
307.1098500916
 20
-43.9331873691
 10
306.1733839962
 20
-45.0122693446
 10
305.2050374319
 20
-46.028420975
 10
304.2100991696
 20
-46.9760917577
 10
303.1940031894
 20
-47.8501082032
 10
302.162299375
 20
-48.6456937944
 10
301.1206220687
 20
-49.3585053911
 10
300.0746607658
 20
-49.9846501472
 10
299.0301280928
 20
-50.5207070386
 10
297.9927289386
 20
-50.9637477254
 10
296.9681293378
 20
-51.3113529937
 10
295.9619250254
 20
-51.5616263464
 10
294.9796120491
 20
-51.7131972798
 10
294.0265549126
 20
-51.7652411948
 10
293.107959081
 20
-51.7174724559
 10
292.2288416755
 20
-51.5701521824
 10
291.3940034856
 20
-51.3240846342
 10
291.3591243343
 20
-51.3112918964
  0
LWPOLYLINE
  5
EB
330
1F
100
AcDbEntity
  8
0
  6
Continuous
 62
     1
370
    25
100
AcDbPolyline
 90
       43
 70
   128
 43
0.0
 10
311.0604434485
 20
-16.6220165937
 10
311.3268734343
 20
-16.8214250777
 10
311.9720198542
 20
-17.3985100266
 10
312.5546776444
 20
-18.0640944449
 10
313.0716653762
 20
-18.8145441622
 10
313.5201592108
 20
-19.6457600184
 10
313.8977093627
 20
-20.5532022006
 10
314.2022545875
 20
-21.5319141983
 10
314.4321300847
 20
-22.5765518925
 10
314.5860819856
 20
-23.6814082719
 10
314.6632686703
 20
-24.8404497923
 10
314.6632686703
 20
-26.0473461311
 10
314.5860819856
 20
-27.2955055007
 10
314.4321300847
 20
-28.5781109614
 10
314.2022545875
 20
-29.8881572553
 10
313.8977093627
 20
-31.2184896852
 10
313.5201592108
 20
-32.5618419941
 10
313.0716653762
 20
-33.9108778097
 10
312.5546776444
 20
-35.2582288567
 10
311.9720198542
 20
-36.5965356402
 10
311.3268734343
 20
-37.9184907906
 10
310.6227629147
 20
-39.2168717621
 10
309.8635335369
 20
-40.4845887396
 10
309.0533321556
 20
-41.714718478
 10
308.1965835314
 20
-42.9005408016
 10
307.2979672816
 20
-44.0355800476
 10
306.3623902213
 20
-45.1136362421
 10
305.3949639729
 20
-46.1288231216
 10
304.400970722
 20
-47.0755939851
 10
303.3858398387
 20
-47.9487795253
 10
302.3551159386
 20
-48.7436108292
 10
301.3144281778
 20
-49.4557447087
 10
300.2694603921
 20
-50.0812946266
 10
299.2259199605
 20
-50.6168410672
 10
298.1895061535
 20
-51.0594619758
 10
297.1658797168
 20
-51.4067381501
 10
296.1606312817
 20
-51.6567729973
 10
295.1792511338
 20
-51.808200861
 10
294.227099496
 20
-51.8601950507
 10
293.3093762358
 20
-51.8124716412
 10
292.4310938648
 20
-51.6652898504
 10
291.5970485625
 20
-51.4194573595
 10
291.0918237527
 20
-51.2124286839
  0
ENDSEC
  0
SECTION
  2
OBJECTS
  0
DICTIONARY
  5
C
330
0
100
AcDbDictionary
281
     1
  3
ACAD_GROUP
350
D
  3
ACAD_LAYOUT
350
1A
  3
ACAD_MLINESTYLE
350
17
  3
ACAD_PLOTSETTINGS
350
19
  3
ACAD_PLOTSTYLENAME
350
E
  3
ACAD_SCALELIST
350
47
  0
DICTIONARY
  5
D
102
{ACAD_REACTORS
330
C
102
}
330
C
100
AcDbDictionary
281
     1
  0
DICTIONARY
  5
1A
102
{ACAD_REACTORS
330
C
102
}
330
C
100
AcDbDictionary
281
     1
  3
Layout1
350
1E
  3
Layout2
350
26
  3
Model
350
22
  0
DICTIONARY
  5
17
102
{ACAD_REACTORS
330
C
102
}
330
C
100
AcDbDictionary
281
     1
  3
Standard
350
18
  0
DICTIONARY
  5
19
102
{ACAD_REACTORS
330
C
102
}
330
C
100
AcDbDictionary
281
     1
  0
ACDBDICTIONARYWDFLT
  5
E
102
{ACAD_REACTORS
330
C
102
}
330
C
100
AcDbDictionary
281
     1
  3
Normal
350
F
100
AcDbDictionaryWithDefault
340
F
  0
DICTIONARY
  5
47
102
{ACAD_REACTORS
330
C
102
}
330
C
100
AcDbDictionary
281
     1
  3
A0
350
48
  3
A1
350
49
  3
A2
350
4A
  3
A3
350
4B
  3
A4
350
4C
  3
A5
350
4D
  3
A6
350
4E
  3
A7
350
4F
  3
A8
350
50
  3
A9
350
51
  3
B0
350
52
  3
B1
350
53
  3
B2
350
54
  3
B3
350
55
  3
B4
350
56
  3
B5
350
57
  3
B6
350
58
  3
B7
350
59
  3
B8
350
5A
  3
B9
350
5B
  3
C0
350
5C
  3
C1
350
5D
  3
C2
350
5E
  3
C3
350
5F
  3
C4
350
60
  3
C5
350
61
  3
C6
350
62
  3
C7
350
63
  3
C8
350
64
  3
C9
350
65
  3
D0
350
66
  3
D1
350
67
  3
D2
350
68
  0
LAYOUT
  5
1E
102
{ACAD_REACTORS
330
1A
102
}
330
1A
100
AcDbPlotSettings
  1

  2
none_device
  4

  6

 40
0.0
 41
0.0
 42
0.0
 43
0.0
 44
0.0
 45
0.0
 46
0.0
 47
0.0
 48
0.0
 49
0.0
140
0.0
141
0.0
142
1.0
143
1.0
 70
   688
 72
     1
 73
     0
 74
     5
  7

 75
    16
147
1.0
148
0.0
149
0.0
100
AcDbLayout
  1
Layout1
 70
     1
 71
     1
 10
0.0
 20
0.0
 11
420.0
 21
297.0
 12
0.0
 22
0.0
 32
0.0
 14
1.0000000000E+20
 24
1.0000000000E+20
 34
1.0000000000E+20
 15
-1.0000000000E+20
 25
-1.0000000000E+20
 35
-1.0000000000E+20
146
0.0
 13
0.0
 23
0.0
 33
0.0
 16
1.0
 26
0.0
 36
0.0
 17
0.0
 27
1.0
 37
0.0
 76
     0
330
1B
  0
LAYOUT
  5
26
102
{ACAD_REACTORS
330
1A
102
}
330
1A
100
AcDbPlotSettings
  1

  2
none_device
  4

  6

 40
0.0
 41
0.0
 42
0.0
 43
0.0
 44
0.0
 45
0.0
 46
0.0
 47
0.0
 48
0.0
 49
0.0
140
0.0
141
0.0
142
1.0
143
1.0
 70
   688
 72
     1
 73
     0
 74
     5
  7

 75
    16
147
1.0
148
0.0
149
0.0
100
AcDbLayout
  1
Layout2
 70
     1
 71
     2
 10
0.0
 20
0.0
 11
0.0
 21
0.0
 12
0.0
 22
0.0
 32
0.0
 14
0.0
 24
0.0
 34
0.0
 15
0.0
 25
0.0
 35
0.0
146
0.0
 13
0.0
 23
0.0
 33
0.0
 16
1.0
 26
0.0
 36
0.0
 17
0.0
 27
1.0
 37
0.0
 76
     0
330
23
  0
LAYOUT
  5
22
102
{ACAD_REACTORS
330
1A
102
}
330
1A
100
AcDbPlotSettings
  1

  2
none_device
  4
Letter_(8.50_x_11.00_Inches)
  6

 40
6.35
 41
6.35
 42
6.35000508
 43
6.35000508
 44
215.9
 45
279.4
 46
0.0
 47
0.0
 48
0.0
 49
0.0
140
0.0
141
0.0
142
1.0
143
1.0
 70
  1712
 72
     1
 73
     0
 74
     0
  7

 75
     0
147
1.0
148
0.0
149
0.0
100
AcDbLayout
  1
Model
 70
     1
 71
     0
 10
0.0
 20
0.0
 11
279.4
 21
215.9
 12
0.0
 22
0.0
 32
0.0
 14
0.0
 24
0.0
 34
0.0
 15
279.4
 25
215.9
 35
0.0
146
0.0
 13
0.0
 23
0.0
 33
0.0
 16
1.0
 26
0.0
 36
0.0
 17
0.0
 27
1.0
 37
0.0
 76
     0
330
1F
331
29
  0
MLINESTYLE
  5
18
102
{ACAD_REACTORS
330
17
102
}
330
17
100
AcDbMlineStyle
  2
Standard
 70
     0
  3

 62
   256
 51
90.0
 52
90.0
 71
     2
 49
0.5
 62
   256
  6
BYLAYER
 49
-0.5
 62
   256
  6
BYLAYER
  0
ACDBPLACEHOLDER
  5
F
102
{ACAD_REACTORS
330
E
102
}
330
E
  0
SCALE
  5
48
102
{ACAD_REACTORS
330
47
102
}
330
47
100
AcDbScale
 70
     0
300
1:1
140
1.0
141
1.0
290
     1
  0
SCALE
  5
49
102
{ACAD_REACTORS
330
47
102
}
330
47
100
AcDbScale
 70
     0
300
1:2
140
1.0
141
2.0
290
     0
  0
SCALE
  5
4A
102
{ACAD_REACTORS
330
47
102
}
330
47
100
AcDbScale
 70
     0
300
1:4
140
1.0
141
4.0
290
     0
  0
SCALE
  5
4B
102
{ACAD_REACTORS
330
47
102
}
330
47
100
AcDbScale
 70
     0
300
1:5
140
1.0
141
5.0
290
     0
  0
SCALE
  5
4C
102
{ACAD_REACTORS
330
47
102
}
330
47
100
AcDbScale
 70
     0
300
1:8
140
1.0
141
8.0
290
     0
  0
SCALE
  5
4D
102
{ACAD_REACTORS
330
47
102
}
330
47
100
AcDbScale
 70
     0
300
1:10
140
1.0
141
10.0
290
     0
  0
SCALE
  5
4E
102
{ACAD_REACTORS
330
47
102
}
330
47
100
AcDbScale
 70
     0
300
1:16
140
1.0
141
16.0
290
     0
  0
SCALE
  5
4F
102
{ACAD_REACTORS
330
47
102
}
330
47
100
AcDbScale
 70
     0
300
1:20
140
1.0
141
20.0
290
     0
  0
SCALE
  5
50
102
{ACAD_REACTORS
330
47
102
}
330
47
100
AcDbScale
 70
     0
300
1:30
140
1.0
141
30.0
290
     0
  0
SCALE
  5
51
102
{ACAD_REACTORS
330
47
102
}
330
47
100
AcDbScale
 70
     0
300
1:40
140
1.0
141
40.0
290
     0
  0
SCALE
  5
52
102
{ACAD_REACTORS
330
47
102
}
330
47
100
AcDbScale
 70
     0
300
1:50
140
1.0
141
50.0
290
     0
  0
SCALE
  5
53
102
{ACAD_REACTORS
330
47
102
}
330
47
100
AcDbScale
 70
     0
300
1:100
140
1.0
141
100.0
290
     0
  0
SCALE
  5
54
102
{ACAD_REACTORS
330
47
102
}
330
47
100
AcDbScale
 70
     0
300
2:1
140
2.0
141
1.0
290
     0
  0
SCALE
  5
55
102
{ACAD_REACTORS
330
47
102
}
330
47
100
AcDbScale
 70
     0
300
4:1
140
4.0
141
1.0
290
     0
  0
SCALE
  5
56
102
{ACAD_REACTORS
330
47
102
}
330
47
100
AcDbScale
 70
     0
300
8:1
140
8.0
141
1.0
290
     0
  0
SCALE
  5
57
102
{ACAD_REACTORS
330
47
102
}
330
47
100
AcDbScale
 70
     0
300
10:1
140
10.0
141
1.0
290
     0
  0
SCALE
  5
58
102
{ACAD_REACTORS
330
47
102
}
330
47
100
AcDbScale
 70
     0
300
100:1
140
100.0
141
1.0
290
     0
  0
SCALE
  5
59
102
{ACAD_REACTORS
330
47
102
}
330
47
100
AcDbScale
 70
     0
300
1/128" = 1'-0"
140
0.0078125
141
12.0
290
     0
  0
SCALE
  5
5A
102
{ACAD_REACTORS
330
47
102
}
330
47
100
AcDbScale
 70
     0
300
1/64" = 1'-0"
140
0.015625
141
12.0
290
     0
  0
SCALE
  5
5B
102
{ACAD_REACTORS
330
47
102
}
330
47
100
AcDbScale
 70
     0
300
1/32" = 1'-0"
140
0.03125
141
12.0
290
     0
  0
SCALE
  5
5C
102
{ACAD_REACTORS
330
47
102
}
330
47
100
AcDbScale
 70
     0
300
1/16" = 1'-0"
140
0.0625
141
12.0
290
     0
  0
SCALE
  5
5D
102
{ACAD_REACTORS
330
47
102
}
330
47
100
AcDbScale
 70
     0
300
3/32" = 1'-0"
140
0.09375
141
12.0
290
     0
  0
SCALE
  5
5E
102
{ACAD_REACTORS
330
47
102
}
330
47
100
AcDbScale
 70
     0
300
1/8" = 1'-0"
140
0.125
141
12.0
290
     0
  0
SCALE
  5
5F
102
{ACAD_REACTORS
330
47
102
}
330
47
100
AcDbScale
 70
     0
300
3/16" = 1'-0"
140
0.1875
141
12.0
290
     0
  0
SCALE
  5
60
102
{ACAD_REACTORS
330
47
102
}
330
47
100
AcDbScale
 70
     0
300
1/4" = 1'-0"
140
0.25
141
12.0
290
     0
  0
SCALE
  5
61
102
{ACAD_REACTORS
330
47
102
}
330
47
100
AcDbScale
 70
     0
300
3/8" = 1'-0"
140
0.375
141
12.0
290
     0
  0
SCALE
  5
62
102
{ACAD_REACTORS
330
47
102
}
330
47
100
AcDbScale
 70
     0
300
1/2" = 1'-0"
140
0.5
141
12.0
290
     0
  0
SCALE
  5
63
102
{ACAD_REACTORS
330
47
102
}
330
47
100
AcDbScale
 70
     0
300
3/4" = 1'-0"
140
0.75
141
12.0
290
     0
  0
SCALE
  5
64
102
{ACAD_REACTORS
330
47
102
}
330
47
100
AcDbScale
 70
     0
300
1" = 1'-0"
140
1.0
141
12.0
290
     0
  0
SCALE
  5
65
102
{ACAD_REACTORS
330
47
102
}
330
47
100
AcDbScale
 70
     0
300
1-1/2" = 1'-0"
140
1.5
141
12.0
290
     0
  0
SCALE
  5
66
102
{ACAD_REACTORS
330
47
102
}
330
47
100
AcDbScale
 70
     0
300
3" = 1'-0"
140
3.0
141
12.0
290
     0
  0
SCALE
  5
67
102
{ACAD_REACTORS
330
47
102
}
330
47
100
AcDbScale
 70
     0
300
6" = 1'-0"
140
6.0
141
12.0
290
     0
  0
SCALE
  5
68
102
{ACAD_REACTORS
330
47
102
}
330
47
100
AcDbScale
 70
     0
300
1'-0" = 1'-0"
140
12.0
141
12.0
290
     0
  0
ENDSEC
  0
EOF
